  0
SECTION
  2
HEADER
  9
$ACADVER
  1
AC1009
  9
$INSBASE
 10
1.249999999999943
 20
-0.1458782538614365
 30
0.0
  9
$EXTMIN
 10
0.939339828220122
 20
-0.1458782538614365
 30
0.0
  9
$EXTMAX
 10
43.15554685802166
 20
51.24313288586185
 30
0.0
  9
$LIMMIN
 10
0.0
 20
0.0
  9
$LIMMAX
 10
410.0
 20
287.0
  9
$ORTHOMODE
 70
     0
  9
$REGENMODE
 70
     1
  9
$FILLMODE
 70
     1
  9
$QTEXTMODE
 70
     0
  9
$MIRRTEXT
 70
     1
  9
$DRAGMODE
 70
     2
  9
$LTSCALE
 40
25.0
  9
$OSMODE
 70
     0
  9
$ATTMODE
 70
     1
  9
$TEXTSIZE
 40
3.5
  9
$TRACEWID
 40
1.0
  9
$TEXTSTYLE
  7
STANDARD
  9
$CLAYER
  8
0
  9
$CELTYPE
  6
BYLAYER
  9
$CECOLOR
 62
   256
  9
$DIMSCALE
 40
1.0
  9
$DIMASZ
 40
3.5
  9
$DIMEXO
 40
0.1
  9
$DIMDLI
 40
7.0
  9
$DIMRND
 40
0.0
  9
$DIMDLE
 40
0.0
  9
$DIMEXE
 40
1.8
  9
$DIMTP
 40
0.0
  9
$DIMTM
 40
0.0
  9
$DIMTXT
 40
3.5
  9
$DIMCEN
 40
1.5
  9
$DIMTSZ
 40
0.0
  9
$DIMTOL
 70
     0
  9
$DIMLIM
 70
     0
  9
$DIMTIH
 70
     0
  9
$DIMTOH
 70
     0
  9
$DIMSE1
 70
     0
  9
$DIMSE2
 70
     0
  9
$DIMTAD
 70
     0
  9
$DIMZIN
 70
     0
  9
$DIMBLK
  1

  9
$DIMASO
 70
     1
  9
$DIMSHO
 70
     0
  9
$DIMPOST
  1

  9
$DIMAPOST
  1

  9
$DIMALT
 70
     0
  9
$DIMALTD
 70
     2
  9
$DIMALTF
 40
25.39999999999999
  9
$DIMLFAC
 40
1.0
  9
$DIMTOFL
 70
     0
  9
$DIMTVP
 40
0.0
  9
$DIMTIX
 70
     0
  9
$DIMSOXD
 70
     0
  9
$DIMSAH
 70
     0
  9
$DIMBLK1
  1

  9
$DIMBLK2
  1

  9
$DIMSTYLE
  2
*UNNAMED
  9
$DIMCLRD
 70
     0
  9
$DIMCLRE
 70
     0
  9
$DIMCLRT
 70
     0
  9
$DIMTFAC
 40
1.0
  9
$DIMGAP
 40
0.09
  9
$LUNITS
 70
     2
  9
$LUPREC
 70
     2
  9
$SKETCHINC
 40
1.0
  9
$FILLETRAD
 40
0.0
  9
$AUNITS
 70
     0
  9
$AUPREC
 70
     0
  9
$MENU
  1

  9
$ELEVATION
 40
0.0
  9
$PELEVATION
 40
0.0
  9
$THICKNESS
 40
0.0
  9
$LIMCHECK
 70
     0
  9
$BLIPMODE
 70
     1
  9
$CHAMFERA
 40
0.0
  9
$CHAMFERB
 40
0.0
  9
$SKPOLY
 70
     0
  9
$TDCREATE
 40
2448476.358143981
  9
$TDUPDATE
 40
2449393.436314351
  9
$TDINDWG
 40
0.0470686343
  9
$TDUSRTIMER
 40
0.0470686343
  9
$USRTIMER
 70
     1
  9
$ANGBASE
 50
0.0
  9
$ANGDIR
 70
     0
  9
$PDMODE
 70
     0
  9
$PDSIZE
 40
0.0
  9
$PLINEWID
 40
0.0
  9
$COORDS
 70
     2
  9
$SPLFRAME
 70
     0
  9
$SPLINETYPE
 70
     6
  9
$SPLINESEGS
 70
     8
  9
$ATTDIA
 70
     0
  9
$ATTREQ
 70
     1
  9
$HANDLING
 70
     1
  9
$HANDSEED
  5
15E
  9
$SURFTAB1
 70
     6
  9
$SURFTAB2
 70
     6
  9
$SURFTYPE
 70
     6
  9
$SURFU
 70
     6
  9
$SURFV
 70
     6
  9
$UCSNAME
  2

  9
$UCSORG
 10
0.0
 20
0.0
 30
0.0
  9
$UCSXDIR
 10
1.0
 20
0.0
 30
0.0
  9
$UCSYDIR
 10
0.0
 20
1.0
 30
0.0
  9
$PUCSNAME
  2

  9
$PUCSORG
 10
0.0
 20
0.0
 30
0.0
  9
$PUCSXDIR
 10
1.0
 20
0.0
 30
0.0
  9
$PUCSYDIR
 10
0.0
 20
1.0
 30
0.0
  9
$USERI1
 70
     0
  9
$USERI2
 70
     0
  9
$USERI3
 70
     0
  9
$USERI4
 70
     0
  9
$USERI5
 70
     0
  9
$USERR1
 40
1.0
  9
$USERR2
 40
0.0
  9
$USERR3
 40
0.0
  9
$USERR4
 40
0.0
  9
$USERR5
 40
0.0
  9
$WORLDVIEW
 70
     1
  9
$SHADEDGE
 70
     3
  9
$SHADEDIF
 70
    70
  9
$TILEMODE
 70
     1
  9
$MAXACTVP
 70
    16
  9
$PINSBASE
 10
0.0
 20
0.0
 30
0.0
  9
$PLIMCHECK
 70
     0
  9
$PEXTMIN
 10
1.000000000000000E+20
 20
1.000000000000000E+20
 30
1.000000000000000E+20
  9
$PEXTMAX
 10
-1.000000000000000E+20
 20
-1.000000000000000E+20
 30
-1.000000000000000E+20
  9
$PLIMMIN
 10
0.0
 20
0.0
  9
$PLIMMAX
 10
12.0
 20
9.0
  9
$UNITMODE
 70
     0
  9
$VISRETAIN
 70
     0
  9
$PLINEGEN
 70
     0
  9
$PSLTSCALE
 70
     0
  9
$TREEDEPTH
 70
  3020
  9
$DWGCODEPAGE
  3
undefined
  0
ENDSEC
  0
SECTION
  2
TABLES
  0
TABLE
  2
VPORT
 70
     2
  0
VPORT
  2
*ACTIVE
 70
     0
 10
0.0
 20
0.0
 11
1.0
 21
1.0
 12
36.72699202778481
 22
27.66447566622416
 13
0.0
 23
0.0
 14
1.0
 24
1.0
 15
10.0
 25
10.0
 16
0.0
 26
0.0
 36
1.0
 17
0.0
 27
0.0
 37
0.0
 40
55.62070784017119
 41
1.275675675675675
 42
50.0
 43
0.0
 44
0.0
 50
0.0
 51
0.0
 71
     0
 72
 20000
 73
     1
 74
     1
 75
     0
 76
     0
 77
     0
 78
     0
  0
ENDTAB
  0
TABLE
  2
LTYPE
 70
     3
  0
LTYPE
  2
CONTINUOUS
 70
    64
  3
Ausgezogene Linie
 72
    65
 73
     0
 40
0.0
  0
LTYPE
  2
ITEM-STRICHPUNKT
 70
    64
  3
__ . __ . __
 72
    65
 73
     4
 40
3.599999999999999
 49
2.399999999999999
 49
-0.6
 49
0.0
 49
-0.6
  0
LTYPE
  2
ITEM-STRICHPGR
 70
    64
  3
____ . ____ . ____ . ____ . ____ . ____ . ____
 72
    65
 73
     4
 40
15.0
 49
10.0
 49
-2.5
 49
0.0
 49
-2.5
  0
ENDTAB
  0
TABLE
  2
LAYER
 70
     4
  0
LAYER
  2
0
 70
     0
 62
     7
  6
CONTINUOUS
  0
LAYER
  2
ITEM_50
 70
    64
 62
     7
  6
CONTINUOUS
  0
LAYER
  2
ITEM_STP
 70
    64
 62
     4
  6
ITEM-STRICHPUNKT
  0
LAYER
  2
ITEM_STPG
 70
    64
 62
     4
  6
ITEM-STRICHPGR
  0
ENDTAB
  0
TABLE
  2
STYLE
 70
     1
  0
STYLE
  2
STANDARD
 70
     0
 40
0.0
 41
1.0
 50
0.0
 71
     0
 42
3.5
  3
txt
  4

  0
ENDTAB
  0
TABLE
  2
VIEW
 70
     0
  0
ENDTAB
  0
TABLE
  2
UCS
 70
     0
  0
ENDTAB
  0
TABLE
  2
APPID
 70
     1
  0
APPID
  2
ACAD
 70
    64
  0
ENDTAB
  0
TABLE
  2
DIMSTYLE
 70
     0
  0
ENDTAB
  0
ENDSEC
  0
SECTION
  2
BLOCKS
  0
ENDSEC
  0
SECTION
  2
ENTITIES
  0
LINE
  8
ITEM_50
  5
9E
 10
1.274295974985411
 20
14.85412174613856
 30
0.0
 11
1.274295974985408
 21
4.854121746138561
 31
0.0
  0
LINE
  8
ITEM_50
  5
9F
 10
1.274295974985408
 20
4.854121746138561
 30
0.0
 11
18.77429597498541
 21
4.854121746138558
 31
0.0
  0
LINE
  8
ITEM_50
  5
A0
 10
18.77429597498541
 20
4.854121746138558
 30
0.0
 11
18.77429597498541
 21
14.85412174613855
 31
0.0
  0
LINE
  8
ITEM_50
  5
A1
 10
18.77429597498541
 20
14.85412174613855
 30
0.0
 11
1.274295974985411
 21
14.85412174613856
 31
0.0
  0
LINE
  8
ITEM_50
  5
A2
 10
3.274295974985411
 20
14.85412174613856
 30
0.0
 11
3.274295974985411
 21
4.854121746138561
 31
0.0
  0
LINE
  8
ITEM_50
  5
A3
 10
16.77429597498541
 20
14.85412174613855
 30
0.0
 11
16.77429597498541
 21
4.854121746138558
 31
0.0
  0
LINE
  8
ITEM_STPG
  5
A4
 10
10.02429597498541
 20
19.85412174613856
 30
0.0
 11
10.0242959749854
 21
-0.1458782538614365
 31
0.0
  0
LINE
  8
ITEM_50
  5
12B
 10
38.15554685802166
 20
34.99996796500519
 30
0.0
 11
28.15554685802166
 21
34.99996796500519
 31
0.0
  0
LINE
  8
ITEM_50
  5
12C
 10
28.15554685802166
 20
34.99996796500519
 30
0.0
 11
28.15554685802166
 21
49.99996796500519
 31
0.0
  0
LINE
  8
ITEM_50
  5
12D
 10
28.15554685802166
 20
49.99996796500519
 30
0.0
 11
38.15554685802166
 21
49.99996796500519
 31
0.0
  0
LINE
  8
ITEM_50
  5
12E
 10
38.15554685802166
 20
49.99996796500519
 30
0.0
 11
38.15554685802166
 21
34.99996796500519
 31
0.0
  0
LINE
  8
ITEM_50
  5
12F
 10
38.15554685802166
 20
44.99996796500519
 30
0.0
 11
28.15554685802166
 21
44.99996796500519
 31
0.0
  0
LINE
  8
ITEM_STPG
  5
130
 10
23.15554685802166
 20
42.99996796500519
 30
0.0
 11
43.15554685802166
 21
42.99996796500519
 31
0.0
  0
LINE
  8
ITEM_STP
  5
131
 10
10.0
 20
42.99999999999997
 30
0.0
 11
9.999999999999943
 21
21.58447099372173
 31
0.0
  0
LINE
  8
ITEM_STP
  5
132
 10
10.0
 20
42.99999999999997
 30
0.0
 11
1.756867114138117
 21
42.99999999999997
 31
0.0
  0
LINE
  8
ITEM_STP
  5
133
 10
10.0
 20
42.99999999999997
 30
0.0
 11
10.0
 21
51.24313288586185
 31
0.0
  0
LINE
  8
ITEM_STP
  5
134
 10
10.0
 20
42.99999999999997
 30
0.0
 11
18.24313288586182
 21
42.99999999999997
 31
0.0
  0
CIRCLE
  8
ITEM_50
  5
135
 10
9.999999999999943
 20
42.99999999999997
 30
0.0
 40
7.0
  0
ARC
  8
ITEM_50
  5
136
 10
12.5
 20
24.49999999999997
 30
0.0
 40
1.5
 50
269.9999999999994
 51
0.0000000000001527
  0
ARC
  8
ITEM_50
  5
137
 10
7.499999999999943
 20
24.50000000000002
 30
0.0
 40
1.5
 50
179.9999999999998
 51
269.9999999999997
  0
ARC
  8
ITEM_50
  5
138
 10
14.99999999999994
 20
33.99999999999997
 30
0.0
 40
1.0
 50
89.99999999999968
 51
179.9999999999992
  0
ARC
  8
ITEM_50
  5
139
 10
4.999999999999943
 20
33.99999999999997
 30
0.0
 40
1.0
 50
0.0000000000005089
 51
90.0
  0
ARC
  8
ITEM_50
  5
13A
 10
17.74999999999994
 20
35.99999999999997
 30
0.0
 40
1.0
 50
269.9999999999997
 51
0.0
  0
ARC
  8
ITEM_50
  5
13B
 10
2.249999999999943
 20
35.99999999999997
 30
0.0
 40
1.0
 50
180.0
 51
269.9999999999999
  0
ARC
  8
ITEM_50
  5
13C
 10
11.89999999999997
 20
24.70000000000001
 30
0.0
 40
0.5
 50
269.9999999999997
 51
0.0
  0
ARC
  8
ITEM_50
  5
13D
 10
8.099999999999965
 20
24.70000000000001
 30
0.0
 40
0.5
 50
180.0
 51
269.9999999999999
  0
LINE
  8
ITEM_50
  5
13E
 10
5.0
 20
34.99999999999997
 30
0.0
 11
2.25
 21
34.99999999999997
 31
0.0
  0
ARC
  8
ITEM_50
  5
13F
 10
9.999999999999943
 20
42.99999999999997
 30
0.0
 40
7.0
 50
212.878349564389
 51
224.4153085971936
  0
LINE
  8
ITEM_50
  5
140
 10
1.25
 20
43.49999999999997
 30
0.0
 11
1.25
 21
35.99999999999997
 31
0.0
  0
LINE
  8
ITEM_50
  5
141
 10
2.75
 20
44.99999999999997
 30
0.0
 11
3.028628325014665
 21
44.99999999999997
 31
0.0
  0
LINE
  8
ITEM_50
  5
142
 10
6.0
 20
33.99999999999997
 30
0.0
 11
6.0
 21
24.50000000000002
 31
0.0
  0
LINE
  8
ITEM_50
  5
143
 10
7.599999999999965
 20
24.70000000000001
 30
0.0
 11
7.599999999999965
 21
33.99999999999997
 31
0.0
  0
ARC
  8
ITEM_50
  5
144
 10
2.749999999999943
 20
43.49999999999997
 30
0.0
 40
1.5
 50
90.00000000000001
 51
180.0
  0
LINE
  8
ITEM_50
  5
145
 10
2.649999999999977
 20
43.49999999999997
 30
0.0
 11
2.649999999999977
 21
37.39817437496625
 31
0.0
  0
ARC
  8
ITEM_50
  5
146
 10
5.099999999999965
 20
33.99999999999997
 30
0.0
 40
2.5
 50
0.0000000000000509
 51
59.95744579588539
  0
LINE
  8
ITEM_50
  5
147
 10
4.999999999999886
 20
38.10102051443348
 30
0.0
 11
4.499999999999886
 21
37.234995110649
 31
0.0
  0
LINE
  8
ITEM_50
  5
148
 10
4.121224617321217
 20
39.19999999999888
 30
0.0
 11
3.023205080756895
 21
37.29817437496623
 31
0.0
  0
LINE
  8
ITEM_50
  5
149
 10
4.499999999999886
 20
37.234995110649
 30
0.0
 11
6.351607671514273
 21
36.1641345236853
 31
0.0
  0
ARC
  8
ITEM_50
  5
14A
 10
2.849999999999965
 20
37.39817437496625
 30
0.0
 40
0.2
 50
180.0
 51
330.0
  0
ARC
  8
ITEM_50
  5
14B
 10
3.028629976826948
 20
44.79999999999998
 30
0.0
 40
0.2
 50
335.2674321768978
 51
90.00047320938635
  0
LINE
  8
ITEM_50
  5
14C
 10
2.649999999999977
 20
43.49999999999997
 30
0.0
 11
3.210284078536688
 21
44.71632331667623
 31
0.0
  0
LINE
  8
ITEM_50
  5
14D
 10
17.34999999999996
 20
43.49999999999997
 30
0.0
 11
16.78971592146331
 21
44.71632331667623
 31
0.0
  0
ARC
  8
ITEM_50
  5
14E
 10
16.97137002317293
 20
44.79999999999998
 30
0.0
 40
0.2
 50
89.99952679061364
 51
204.7325678231021
  0
ARC
  8
ITEM_50
  5
14F
 10
17.14999999999992
 20
37.39817437496625
 30
0.0
 40
0.2
 50
210.0
 51
0.0
  0
LINE
  8
ITEM_50
  5
150
 10
15.50000000000011
 20
37.234995110649
 30
0.0
 11
13.64839232848572
 21
36.1641345236853
 31
0.0
  0
LINE
  8
ITEM_50
  5
151
 10
15.87877538267878
 20
39.19999999999888
 30
0.0
 11
16.9767949192431
 21
37.29817437496623
 31
0.0
  0
LINE
  8
ITEM_50
  5
152
 10
15.00000000000011
 20
38.10102051443348
 30
0.0
 11
15.50000000000011
 21
37.234995110649
 31
0.0
  0
ARC
  8
ITEM_50
  5
153
 10
14.90000000000003
 20
33.99999999999997
 30
0.0
 40
2.5
 50
120.0425542041145
 51
180.0
  0
LINE
  8
ITEM_50
  5
154
 10
17.34999999999996
 20
43.49999999999997
 30
0.0
 11
17.34999999999996
 21
37.39817437496625
 31
0.0
  0
ARC
  8
ITEM_50
  5
155
 10
17.24999999999994
 20
43.49999999999997
 30
0.0
 40
1.5
 50
0.0
 51
90.0
  0
LINE
  8
ITEM_50
  5
156
 10
12.39999999999997
 20
24.70000000000001
 30
0.0
 11
12.39999999999997
 21
33.99999999999997
 31
0.0
  0
LINE
  8
ITEM_50
  5
157
 10
11.89999999999997
 20
24.20000000000001
 30
0.0
 11
8.099999999999965
 21
24.20000000000001
 31
0.0
  0
LINE
  8
ITEM_50
  5
158
 10
13.99999999999994
 20
33.99999999999997
 30
0.0
 11
13.99999999999994
 21
24.49999999999997
 31
0.0
  0
LINE
  8
ITEM_50
  5
159
 10
12.49999999999994
 20
22.99999999999997
 30
0.0
 11
7.499999999999943
 21
23.00000000000002
 31
0.0
  0
LINE
  8
ITEM_50
  5
15A
 10
17.75
 20
34.99999999999997
 30
0.0
 11
14.99999999999994
 21
34.99999999999997
 31
0.0
  0
LINE
  8
ITEM_50
  5
15B
 10
17.25
 20
44.99999999999997
 30
0.0
 11
16.97137167498533
 21
44.99999999999997
 31
0.0
  0
LINE
  8
ITEM_50
  5
15C
 10
18.75
 20
43.49999999999997
 30
0.0
 11
18.75
 21
35.99999999999997
 31
0.0
  0
ARC
  8
ITEM_50
  5
15D
 10
9.999999999999943
 20
42.99999999999997
 30
0.0
 40
7.0
 50
315.5846914028064
 51
327.121650435611
  0
ENDSEC
  0
EOF
